ISO-10303-21;
HEADER;
FILE_DESCRIPTION (( 'STEP AP214' ),
    '1' );
FILE_NAME ('2046583.STEP',
    '2025-01-24T14:28:18',
    ( '' ),
    ( '' ),
    'SwSTEP 2.0',
    'SolidWorks 2024',
    '' );
FILE_SCHEMA (( 'AUTOMOTIVE_DESIGN' ));
ENDSEC;

DATA;
#1 = FILL_AREA_STYLE ('',( #78 ) ) ;
#2 = PRESENTATION_STYLE_ASSIGNMENT (( #197 ) ) ;
#3 = EDGE_CURVE ( 'NONE', #149, #134, #46, .T. ) ;
#4 = DIRECTION ( 'NONE',  ( -1.000000000000000000, -0.000000000000000000, -0.000000000000000000 ) ) ;
#5 = CARTESIAN_POINT ( 'NONE',  ( -27.49999999999999645, 0.000000000000000000, 0.000000000000000000 ) ) ;
#6 = VECTOR ( 'NONE', #120, 1000.000000000000000 ) ;
#7 = FACE_OUTER_BOUND ( 'NONE', #127, .T. ) ;
#8 = CYLINDRICAL_SURFACE ( 'NONE', #165, 10.24999999999999822 ) ;
#9 = DIRECTION ( 'NONE',  ( 0.000000000000000000, 0.000000000000000000, 1.000000000000000000 ) ) ;
#10 = AXIS2_PLACEMENT_3D ( 'NONE', #28, #153, #152 ) ;
#11 = ORIENTED_EDGE ( 'NONE', *, *, #83, .F. ) ;
#12 = PRODUCT_DEFINITION_FORMATION_WITH_SPECIFIED_SOURCE ( 'ANY', '', #126, .NOT_KNOWN. ) ;
#13 =( NAMED_UNIT ( * ) PLANE_ANGLE_UNIT ( ) SI_UNIT ( $, .RADIAN. ) );
#14 = SURFACE_STYLE_FILL_AREA ( #1 ) ;
#15 = VECTOR ( 'NONE', #64, 1000.000000000000000 ) ;
#16 = UNCERTAINTY_MEASURE_WITH_UNIT (LENGTH_MEASURE( 1.000000000000000082E-05 ), #19, 'distance_accuracy_value', 'NONE');
#17 = CARTESIAN_POINT ( 'NONE',  ( -27.49999999999999645, 0.000000000000000000, 11.19999999999999574 ) ) ;
#18 = LINE ( 'NONE', #92, #146 ) ;
#19 =( LENGTH_UNIT ( ) NAMED_UNIT ( * ) SI_UNIT ( .MILLI., .METRE. ) );
#20 = FACE_OUTER_BOUND ( 'NONE', #171, .T. ) ;
#21 = FACE_BOUND ( 'NONE', #148, .T. ) ;
#22 = EDGE_LOOP ( 'NONE', ( #54, #166 ) ) ;
#23 = AXIS2_PLACEMENT_3D ( 'NONE', #5, #4, #47 ) ;
#24 = ORIENTED_EDGE ( 'NONE', *, *, #147, .T. ) ;
#25 = DIRECTION ( 'NONE',  ( -1.000000000000000000, -0.000000000000000000, -0.000000000000000000 ) ) ;
#26 = APPLICATION_CONTEXT ( 'automotive_design' ) ;
#27 = CARTESIAN_POINT ( 'NONE',  ( -27.49999999999999645, 0.000000000000000000, 0.000000000000000000 ) ) ;
#28 = CARTESIAN_POINT ( 'NONE',  ( 27.49999999999999645, 11.19999999999999574, 0.000000000000000000 ) ) ;
#29 = ORIENTED_EDGE ( 'NONE', *, *, #185, .F. ) ;
#30 = FACE_OUTER_BOUND ( 'NONE', #96, .T. ) ;
#31 = CIRCLE ( 'NONE', #144, 10.25000000000000000 ) ;
#32 = AXIS2_PLACEMENT_3D ( 'NONE', #180, #77, #106 ) ;
#33 = DIRECTION ( 'NONE',  ( 0.000000000000000000, 0.000000000000000000, 1.000000000000000000 ) ) ;
#34 = FACE_OUTER_BOUND ( 'NONE', #187, .T. ) ;
#35 = CARTESIAN_POINT ( 'NONE',  ( -27.49999999999999645, 1.371604415045035119E-15, -11.19999999999999574 ) ) ;
#36 =( GEOMETRIC_REPRESENTATION_CONTEXT ( 3 ) GLOBAL_UNCERTAINTY_ASSIGNED_CONTEXT ( ( #131 ) ) GLOBAL_UNIT_ASSIGNED_CONTEXT ( ( #182, #13, #55 ) ) REPRESENTATION_CONTEXT ( 'NONE', 'WORKASPACE' ) );
#37 = DIRECTION ( 'NONE',  ( 0.000000000000000000, 0.000000000000000000, 1.000000000000000000 ) ) ;
#38 = CIRCLE ( 'NONE', #98, 11.19999999999999574 ) ;
#39 = EDGE_CURVE ( 'NONE', #184, #101, #100, .T. ) ;
#40 = ORIENTED_EDGE ( 'NONE', *, *, #199, .T. ) ;
#41 = CIRCLE ( 'NONE', #196, 11.19999999999999574 ) ;
#42 = ORIENTED_EDGE ( 'NONE', *, *, #39, .F. ) ;
#43 = ADVANCED_FACE ( 'NONE', ( #112, #45 ), #97, .F. ) ;
#44 = DIRECTION ( 'NONE',  ( -1.000000000000000000, -0.000000000000000000, -0.000000000000000000 ) ) ;
#45 = FACE_BOUND ( 'NONE', #163, .T. ) ;
#46 = LINE ( 'NONE', #136, #117 ) ;
#47 = DIRECTION ( 'NONE',  ( 0.000000000000000000, 0.000000000000000000, 1.000000000000000000 ) ) ;
#48 = DIRECTION ( 'NONE',  ( 0.000000000000000000, 0.000000000000000000, 1.000000000000000000 ) ) ;
#49 = CARTESIAN_POINT ( 'NONE',  ( 27.49999999999999645, 1.255262969126037241E-15, -10.25000000000000000 ) ) ;
#50 = CARTESIAN_POINT ( 'NONE',  ( -27.49999999999999645, 0.000000000000000000, 0.000000000000000000 ) ) ;
#51 = CIRCLE ( 'NONE', #73, 11.19999999999999574 ) ;
#52 = DIRECTION ( 'NONE',  ( -1.000000000000000000, -0.000000000000000000, -0.000000000000000000 ) ) ;
#53 =( GEOMETRIC_REPRESENTATION_CONTEXT ( 3 ) GLOBAL_UNCERTAINTY_ASSIGNED_CONTEXT ( ( #16 ) ) GLOBAL_UNIT_ASSIGNED_CONTEXT ( ( #19, #164, #179 ) ) REPRESENTATION_CONTEXT ( 'NONE', 'WORKASPACE' ) );
#54 = ORIENTED_EDGE ( 'NONE', *, *, #89, .F. ) ;
#55 =( NAMED_UNIT ( * ) SI_UNIT ( $, .STERADIAN. ) SOLID_ANGLE_UNIT ( ) );
#56 = EDGE_CURVE ( 'NONE', #186, #101, #195, .T. ) ;
#57 = ORIENTED_EDGE ( 'NONE', *, *, #143, .T. ) ;
#58 = CARTESIAN_POINT ( 'NONE',  ( -27.49999999999999645, 0.000000000000000000, 10.25000000000000000 ) ) ;
#59 = CARTESIAN_POINT ( 'NONE',  ( 27.49999999999999645, 0.000000000000000000, 10.25000000000000000 ) ) ;
#60 = DIRECTION ( 'NONE',  ( -1.000000000000000000, -0.000000000000000000, -0.000000000000000000 ) ) ;
#61 = FACE_OUTER_BOUND ( 'NONE', #82, .T. ) ;
#62 = DIRECTION ( 'NONE',  ( -1.000000000000000000, -0.000000000000000000, -0.000000000000000000 ) ) ;
#63 = PRODUCT_DEFINITION_CONTEXT ( 'detailed design', #85, 'design' ) ;
#64 = DIRECTION ( 'NONE',  ( -1.000000000000000000, -0.000000000000000000, -0.000000000000000000 ) ) ;
#65 = AXIS2_PLACEMENT_3D ( 'NONE', #91, #60, #37 ) ;
#66 = DIRECTION ( 'NONE',  ( 0.000000000000000000, 0.000000000000000000, 1.000000000000000000 ) ) ;
#67 = ORIENTED_EDGE ( 'NONE', *, *, #93, .T. ) ;
#68 = ORIENTED_EDGE ( 'NONE', *, *, #185, .T. ) ;
#69 = CLOSED_SHELL ( 'NONE', ( #109, #194, #128, #159, #43, #154 ) ) ;
#70 = ORIENTED_EDGE ( 'NONE', *, *, #174, .F. ) ;
#71 = DIRECTION ( 'NONE',  ( -1.000000000000000000, -0.000000000000000000, -0.000000000000000000 ) ) ;
#72 = CARTESIAN_POINT ( 'NONE',  ( -27.49999999999999645, 0.000000000000000000, 0.000000000000000000 ) ) ;
#73 = AXIS2_PLACEMENT_3D ( 'NONE', #192, #141, #137 ) ;
#74 = PRODUCT_RELATED_PRODUCT_CATEGORY ( 'part', '', ( #126 ) ) ;
#75 = MECHANICAL_DESIGN_GEOMETRIC_PRESENTATION_REPRESENTATION (  '', ( #113 ), #36 ) ;
#76 = ORIENTED_EDGE ( 'NONE', *, *, #174, .T. ) ;
#77 = DIRECTION ( 'NONE',  ( 0.000000000000000000, 0.000000000000000000, 1.000000000000000000 ) ) ;
#78 = FILL_AREA_STYLE_COLOUR ( '', #169 ) ;
#79 = SURFACE_SIDE_STYLE ('',( #14 ) ) ;
#80 = CIRCLE ( 'NONE', #110, 10.25000000000000000 ) ;
#81 = ORIENTED_EDGE ( 'NONE', *, *, #193, .T. ) ;
#82 = EDGE_LOOP ( 'NONE', ( #133, #24, #11, #114 ) ) ;
#83 = EDGE_CURVE ( 'NONE', #134, #183, #176, .T. ) ;
#84 = CARTESIAN_POINT ( 'NONE',  ( -27.49999999999999645, 0.000000000000000000, 10.24999999999999822 ) ) ;
#85 = APPLICATION_CONTEXT ( 'automotive_design' ) ;
#86 = MANIFOLD_SOLID_BREP ( 'DeleteFace2', #69 ) ;
#87 = AXIS2_PLACEMENT_3D ( 'NONE', #27, #167, #66 ) ;
#88 = CARTESIAN_POINT ( 'NONE',  ( 27.49999999999999645, 0.000000000000000000, 0.000000000000000000 ) ) ;
#89 = EDGE_CURVE ( 'NONE', #149, #132, #41, .T. ) ;
#90 = DIRECTION ( 'NONE',  ( -1.000000000000000000, -0.000000000000000000, -0.000000000000000000 ) ) ;
#91 = CARTESIAN_POINT ( 'NONE',  ( -27.49999999999999645, 0.000000000000000000, 0.000000000000000000 ) ) ;
#92 = CARTESIAN_POINT ( 'NONE',  ( -27.49999999999999645, 1.371604415045035316E-15, -11.19999999999999751 ) ) ;
#93 = EDGE_CURVE ( 'NONE', #132, #149, #51, .T. ) ;
#94 = SHAPE_DEFINITION_REPRESENTATION ( #162, #118 ) ;
#95 = APPLICATION_PROTOCOL_DEFINITION ( 'draft international standard', 'automotive_design', 1998, #26 ) ;
#96 = EDGE_LOOP ( 'NONE', ( #170, #151, #145, #68 ) ) ;
#97 = PLANE ( 'NONE',  #10 ) ;
#98 = AXIS2_PLACEMENT_3D ( 'NONE', #172, #90, #190 ) ;
#99 = VERTEX_POINT ( 'NONE', #49 ) ;
#100 = LINE ( 'NONE', #84, #15 ) ;
#101 = VERTEX_POINT ( 'NONE', #58 ) ;
#102 = CARTESIAN_POINT ( 'NONE',  ( -27.49999999999999645, 1.255262969126037241E-15, -10.25000000000000000 ) ) ;
#103 = CYLINDRICAL_SURFACE ( 'NONE', #65, 11.19999999999999751 ) ;
#104 = CYLINDRICAL_SURFACE ( 'NONE', #23, 11.19999999999999751 ) ;
#105 = DIRECTION ( 'NONE',  ( 0.000000000000000000, 0.000000000000000000, -1.000000000000000000 ) ) ;
#106 = DIRECTION ( 'NONE',  ( 1.000000000000000000, 0.000000000000000000, 0.000000000000000000 ) ) ;
#107 = APPLICATION_PROTOCOL_DEFINITION ( 'draft international standard', 'automotive_design', 1998, #85 ) ;
#108 = ORIENTED_EDGE ( 'NONE', *, *, #83, .T. ) ;
#109 = ADVANCED_FACE ( 'NONE', ( #61 ), #104, .T. ) ;
#110 = AXIS2_PLACEMENT_3D ( 'NONE', #191, #71, #116 ) ;
#111 = ORIENTED_EDGE ( 'NONE', *, *, #56, .F. ) ;
#112 = FACE_OUTER_BOUND ( 'NONE', #22, .T. ) ;
#113 = STYLED_ITEM ( 'NONE', ( #2 ), #86 ) ;
#114 = ORIENTED_EDGE ( 'NONE', *, *, #3, .F. ) ;
#115 = ORIENTED_EDGE ( 'NONE', *, *, #199, .F. ) ;
#116 = DIRECTION ( 'NONE',  ( 0.000000000000000000, 0.000000000000000000, 1.000000000000000000 ) ) ;
#117 = VECTOR ( 'NONE', #44, 1000.000000000000000 ) ;
#118 = ADVANCED_BREP_SHAPE_REPRESENTATION ( '2046583', ( #86, #32 ), #53 ) ;
#119 = CARTESIAN_POINT ( 'NONE',  ( 27.49999999999999645, 0.000000000000000000, 0.000000000000000000 ) ) ;
#120 = DIRECTION ( 'NONE',  ( -1.000000000000000000, -0.000000000000000000, -0.000000000000000000 ) ) ;
#121 = PLANE ( 'NONE',  #139 ) ;
#122 = PRESENTATION_LAYER_ASSIGNMENT (  '', '', ( #113 ) ) ;
#123 = CYLINDRICAL_SURFACE ( 'NONE', #181, 10.24999999999999822 ) ;
#124 = PRODUCT_CONTEXT ( 'NONE', #26, 'mechanical' ) ;
#125 = ORIENTED_EDGE ( 'NONE', *, *, #147, .F. ) ;
#126 = PRODUCT ( '2046583', '2046583', '', ( #124 ) ) ;
#127 = EDGE_LOOP ( 'NONE', ( #125, #67, #198, #70 ) ) ;
#128 = ADVANCED_FACE ( 'NONE', ( #21, #34 ), #121, .F. ) ;
#129 = CARTESIAN_POINT ( 'NONE',  ( -27.49999999999999645, 0.000000000000000000, 0.000000000000000000 ) ) ;
#130 = CIRCLE ( 'NONE', #160, 10.25000000000000000 ) ;
#131 = UNCERTAINTY_MEASURE_WITH_UNIT (LENGTH_MEASURE( 1.000000000000000082E-05 ), #182, 'distance_accuracy_value', 'NONE');
#132 = VERTEX_POINT ( 'NONE', #142 ) ;
#133 = ORIENTED_EDGE ( 'NONE', *, *, #89, .T. ) ;
#134 = VERTEX_POINT ( 'NONE', #17 ) ;
#135 = AXIS2_PLACEMENT_3D ( 'NONE', #129, #25, #168 ) ;
#136 = CARTESIAN_POINT ( 'NONE',  ( -27.49999999999999645, 0.000000000000000000, 11.19999999999999751 ) ) ;
#137 = DIRECTION ( 'NONE',  ( 0.000000000000000000, 0.000000000000000000, 1.000000000000000000 ) ) ;
#138 = DIRECTION ( 'NONE',  ( 0.000000000000000000, 0.000000000000000000, 1.000000000000000000 ) ) ;
#139 = AXIS2_PLACEMENT_3D ( 'NONE', #157, #177, #105 ) ;
#140 = CARTESIAN_POINT ( 'NONE',  ( 27.49999999999999645, 0.000000000000000000, 11.19999999999999574 ) ) ;
#141 = DIRECTION ( 'NONE',  ( -1.000000000000000000, -0.000000000000000000, -0.000000000000000000 ) ) ;
#142 = CARTESIAN_POINT ( 'NONE',  ( 27.49999999999999645, 1.371604415045035119E-15, -11.19999999999999574 ) ) ;
#143 = EDGE_CURVE ( 'NONE', #184, #99, #130, .T. ) ;
#144 = AXIS2_PLACEMENT_3D ( 'NONE', #119, #189, #48 ) ;
#145 = ORIENTED_EDGE ( 'NONE', *, *, #39, .T. ) ;
#146 = VECTOR ( 'NONE', #62, 1000.000000000000000 ) ;
#147 = EDGE_CURVE ( 'NONE', #132, #183, #18, .T. ) ;
#148 = EDGE_LOOP ( 'NONE', ( #29, #111 ) ) ;
#149 = VERTEX_POINT ( 'NONE', #140 ) ;
#150 = CARTESIAN_POINT ( 'NONE',  ( 27.49999999999999645, 0.000000000000000000, 0.000000000000000000 ) ) ;
#151 = ORIENTED_EDGE ( 'NONE', *, *, #143, .F. ) ;
#152 = DIRECTION ( 'NONE',  ( -0.000000000000000000, 0.000000000000000000, 1.000000000000000000 ) ) ;
#153 = DIRECTION ( 'NONE',  ( -1.000000000000000000, 0.000000000000000000, -0.000000000000000000 ) ) ;
#154 = ADVANCED_FACE ( 'NONE', ( #7 ), #103, .T. ) ;
#155 = DIRECTION ( 'NONE',  ( -1.000000000000000000, -0.000000000000000000, -0.000000000000000000 ) ) ;
#156 = DIRECTION ( 'NONE',  ( -1.000000000000000000, -0.000000000000000000, -0.000000000000000000 ) ) ;
#157 = CARTESIAN_POINT ( 'NONE',  ( -27.49999999999999645, 11.19999999999999574, 0.000000000000000000 ) ) ;
#158 = DIRECTION ( 'NONE',  ( -1.000000000000000000, -0.000000000000000000, -0.000000000000000000 ) ) ;
#159 = ADVANCED_FACE ( 'NONE', ( #30 ), #123, .F. ) ;
#160 = AXIS2_PLACEMENT_3D ( 'NONE', #88, #156, #138 ) ;
#161 = ORIENTED_EDGE ( 'NONE', *, *, #56, .T. ) ;
#162 = PRODUCT_DEFINITION_SHAPE ( 'NONE', 'NONE',  #178 ) ;
#163 = EDGE_LOOP ( 'NONE', ( #57, #40 ) ) ;
#164 =( NAMED_UNIT ( * ) PLANE_ANGLE_UNIT ( ) SI_UNIT ( $, .RADIAN. ) );
#165 = AXIS2_PLACEMENT_3D ( 'NONE', #50, #158, #33 ) ;
#166 = ORIENTED_EDGE ( 'NONE', *, *, #93, .F. ) ;
#167 = DIRECTION ( 'NONE',  ( -1.000000000000000000, -0.000000000000000000, -0.000000000000000000 ) ) ;
#168 = DIRECTION ( 'NONE',  ( 0.000000000000000000, 0.000000000000000000, 1.000000000000000000 ) ) ;
#169 = COLOUR_RGB ( '',0.7921568627450980005, 0.8196078431372548767, 0.9333333333333333481 ) ;
#170 = ORIENTED_EDGE ( 'NONE', *, *, #193, .F. ) ;
#171 = EDGE_LOOP ( 'NONE', ( #115, #81, #161, #42 ) ) ;
#172 = CARTESIAN_POINT ( 'NONE',  ( -27.49999999999999645, 0.000000000000000000, 0.000000000000000000 ) ) ;
#173 = CARTESIAN_POINT ( 'NONE',  ( -27.49999999999999645, 1.255262969126037044E-15, -10.24999999999999822 ) ) ;
#174 = EDGE_CURVE ( 'NONE', #183, #134, #38, .T. ) ;
#175 = DIRECTION ( 'NONE',  ( 0.000000000000000000, 0.000000000000000000, 1.000000000000000000 ) ) ;
#176 = CIRCLE ( 'NONE', #135, 11.19999999999999574 ) ;
#177 = DIRECTION ( 'NONE',  ( 1.000000000000000000, 0.000000000000000000, 0.000000000000000000 ) ) ;
#178 = PRODUCT_DEFINITION ( 'UNKNOWN', '', #12, #63 ) ;
#179 =( NAMED_UNIT ( * ) SI_UNIT ( $, .STERADIAN. ) SOLID_ANGLE_UNIT ( ) );
#180 = CARTESIAN_POINT ( 'NONE',  ( 0.000000000000000000, 0.000000000000000000, 0.000000000000000000 ) ) ;
#181 = AXIS2_PLACEMENT_3D ( 'NONE', #72, #155, #175 ) ;
#182 =( LENGTH_UNIT ( ) NAMED_UNIT ( * ) SI_UNIT ( .MILLI., .METRE. ) );
#183 = VERTEX_POINT ( 'NONE', #35 ) ;
#184 = VERTEX_POINT ( 'NONE', #59 ) ;
#185 = EDGE_CURVE ( 'NONE', #101, #186, #80, .T. ) ;
#186 = VERTEX_POINT ( 'NONE', #102 ) ;
#187 = EDGE_LOOP ( 'NONE', ( #108, #76 ) ) ;
#188 = LINE ( 'NONE', #173, #6 ) ;
#189 = DIRECTION ( 'NONE',  ( -1.000000000000000000, -0.000000000000000000, -0.000000000000000000 ) ) ;
#190 = DIRECTION ( 'NONE',  ( 0.000000000000000000, 0.000000000000000000, 1.000000000000000000 ) ) ;
#191 = CARTESIAN_POINT ( 'NONE',  ( -27.49999999999999645, 0.000000000000000000, 0.000000000000000000 ) ) ;
#192 = CARTESIAN_POINT ( 'NONE',  ( 27.49999999999999645, 0.000000000000000000, 0.000000000000000000 ) ) ;
#193 = EDGE_CURVE ( 'NONE', #99, #186, #188, .T. ) ;
#194 = ADVANCED_FACE ( 'NONE', ( #20 ), #8, .F. ) ;
#195 = CIRCLE ( 'NONE', #87, 10.25000000000000000 ) ;
#196 = AXIS2_PLACEMENT_3D ( 'NONE', #150, #52, #9 ) ;
#197 = SURFACE_STYLE_USAGE ( .BOTH. , #79 ) ;
#198 = ORIENTED_EDGE ( 'NONE', *, *, #3, .T. ) ;
#199 = EDGE_CURVE ( 'NONE', #99, #184, #31, .T. ) ;
ENDSEC;
END-ISO-10303-21;
