ISO-10303-21;
HEADER;
FILE_DESCRIPTION (( 'STEP AP214' ),
    '1' );
FILE_NAME ('2046526.STEP',
    '2025-01-24T14:56:29',
    ( '' ),
    ( '' ),
    'SwSTEP 2.0',
    'SolidWorks 2024',
    '' );
FILE_SCHEMA (( 'AUTOMOTIVE_DESIGN' ));
ENDSEC;

DATA;
#1 = EDGE_LOOP ( 'NONE', ( #99, #197, #87, #152 ) ) ;
#2 = CIRCLE ( 'NONE', #108, 21.64999999999999503 ) ;
#3 = DIRECTION ( 'NONE',  ( 1.000000000000000000, 0.000000000000000000, 0.000000000000000000 ) ) ;
#4 = LINE ( 'NONE', #123, #48 ) ;
#5 = MANIFOLD_SOLID_BREP ( 'Rotation1', #9 ) ;
#6 = FACE_OUTER_BOUND ( 'NONE', #136, .T. ) ;
#7 = FACE_OUTER_BOUND ( 'NONE', #73, .T. ) ;
#8 = CARTESIAN_POINT ( 'NONE',  ( -22.50000000000000000, 0.000000000000000000, 21.64999999999999503 ) ) ;
#9 = CLOSED_SHELL ( 'NONE', ( #130, #66, #162, #193, #107, #178 ) ) ;
#10 = EDGE_CURVE ( 'NONE', #141, #43, #95, .T. ) ;
#11 = CIRCLE ( 'NONE', #167, 21.64999999999999503 ) ;
#12 = PRODUCT_CONTEXT ( 'NONE', #90, 'mechanical' ) ;
#13 = EDGE_CURVE ( 'NONE', #151, #70, #153, .T. ) ;
#14 = DIRECTION ( 'NONE',  ( 0.000000000000000000, 0.000000000000000000, 1.000000000000000000 ) ) ;
#15 = ORIENTED_EDGE ( 'NONE', *, *, #145, .F. ) ;
#16 = PRESENTATION_LAYER_ASSIGNMENT (  '', '', ( #111 ) ) ;
#17 = FACE_BOUND ( 'NONE', #29, .T. ) ;
#18 = VECTOR ( 'NONE', #58, 1000.000000000000000 ) ;
#19 = DIRECTION ( 'NONE',  ( -1.000000000000000000, -0.000000000000000000, -0.000000000000000000 ) ) ;
#20 = DIRECTION ( 'NONE',  ( 0.000000000000000000, 0.000000000000000000, 1.000000000000000000 ) ) ;
#21 = FACE_OUTER_BOUND ( 'NONE', #1, .T. ) ;
#22 = FACE_BOUND ( 'NONE', #100, .T. ) ;
#23 = APPLICATION_PROTOCOL_DEFINITION ( 'draft international standard', 'automotive_design', 1998, #90 ) ;
#24 = VECTOR ( 'NONE', #94, 1000.000000000000000 ) ;
#25 = DIRECTION ( 'NONE',  ( -1.000000000000000000, -0.000000000000000000, -0.000000000000000000 ) ) ;
#26 =( NAMED_UNIT ( * ) PLANE_ANGLE_UNIT ( ) SI_UNIT ( $, .RADIAN. ) );
#27 = ORIENTED_EDGE ( 'NONE', *, *, #196, .F. ) ;
#28 = ORIENTED_EDGE ( 'NONE', *, *, #63, .F. ) ;
#29 = EDGE_LOOP ( 'NONE', ( #28, #86 ) ) ;
#30 = COLOUR_RGB ( '',0.7921568627450980005, 0.8196078431372548767, 0.9333333333333333481 ) ;
#31 = PRODUCT_DEFINITION_FORMATION_WITH_SPECIFIED_SOURCE ( 'ANY', '', #189, .NOT_KNOWN. ) ;
#32 = CARTESIAN_POINT ( 'NONE',  ( 22.50000000000000000, 0.000000000000000000, 19.25000000000000000 ) ) ;
#33 = AXIS2_PLACEMENT_3D ( 'NONE', #78, #106, #157 ) ;
#34 = DIRECTION ( 'NONE',  ( -1.000000000000000000, -0.000000000000000000, -0.000000000000000000 ) ) ;
#35 = DIRECTION ( 'NONE',  ( -1.000000000000000000, -0.000000000000000000, -0.000000000000000000 ) ) ;
#36 = CARTESIAN_POINT ( 'NONE',  ( -22.50000000000000000, 0.000000000000000000, 0.000000000000000000 ) ) ;
#37 = CARTESIAN_POINT ( 'NONE',  ( -22.50000000000000000, 0.000000000000000000, 19.25000000000000000 ) ) ;
#38 = EDGE_CURVE ( 'NONE', #70, #151, #82, .T. ) ;
#39 = DIRECTION ( 'NONE',  ( 0.000000000000000000, 0.000000000000000000, 1.000000000000000000 ) ) ;
#40 = ORIENTED_EDGE ( 'NONE', *, *, #175, .F. ) ;
#41 = EDGE_LOOP ( 'NONE', ( #55, #168, #56, #40 ) ) ;
#42 = DIRECTION ( 'NONE',  ( 1.000000000000000000, 0.000000000000000000, 0.000000000000000000 ) ) ;
#43 = VERTEX_POINT ( 'NONE', #174 ) ;
#44 = DIRECTION ( 'NONE',  ( 0.000000000000000000, 0.000000000000000000, -1.000000000000000000 ) ) ;
#45 = CARTESIAN_POINT ( 'NONE',  ( 22.50000000000000000, 0.000000000000000000, 0.000000000000000000 ) ) ;
#46 = DIRECTION ( 'NONE',  ( 0.000000000000000000, 0.000000000000000000, 1.000000000000000000 ) ) ;
#47 = EDGE_CURVE ( 'NONE', #132, #43, #125, .T. ) ;
#48 = VECTOR ( 'NONE', #34, 1000.000000000000000 ) ;
#49 = DIRECTION ( 'NONE',  ( 0.000000000000000000, 0.000000000000000000, 1.000000000000000000 ) ) ;
#50 = AXIS2_PLACEMENT_3D ( 'NONE', #135, #112, #68 ) ;
#51 = VERTEX_POINT ( 'NONE', #159 ) ;
#52 =( GEOMETRIC_REPRESENTATION_CONTEXT ( 3 ) GLOBAL_UNCERTAINTY_ASSIGNED_CONTEXT ( ( #77 ) ) GLOBAL_UNIT_ASSIGNED_CONTEXT ( ( #133, #26, #53 ) ) REPRESENTATION_CONTEXT ( 'NONE', 'WORKASPACE' ) );
#53 =( NAMED_UNIT ( * ) SI_UNIT ( $, .STERADIAN. ) SOLID_ANGLE_UNIT ( ) );
#54 = ORIENTED_EDGE ( 'NONE', *, *, #145, .T. ) ;
#55 = ORIENTED_EDGE ( 'NONE', *, *, #47, .F. ) ;
#56 = ORIENTED_EDGE ( 'NONE', *, *, #137, .T. ) ;
#57 = CARTESIAN_POINT ( 'NONE',  ( 22.50000000000000000, 0.000000000000000000, 0.000000000000000000 ) ) ;
#58 = DIRECTION ( 'NONE',  ( -1.000000000000000000, -0.000000000000000000, -0.000000000000000000 ) ) ;
#59 = DIRECTION ( 'NONE',  ( -1.000000000000000000, -0.000000000000000000, -0.000000000000000000 ) ) ;
#60 =( NAMED_UNIT ( * ) SI_UNIT ( $, .STERADIAN. ) SOLID_ANGLE_UNIT ( ) );
#61 = CARTESIAN_POINT ( 'NONE',  ( -22.50000000000000000, 0.000000000000000000, 21.64999999999999503 ) ) ;
#62 = AXIS2_PLACEMENT_3D ( 'NONE', #45, #187, #129 ) ;
#63 = EDGE_CURVE ( 'NONE', #71, #51, #170, .T. ) ;
#64 = PRODUCT_DEFINITION_CONTEXT ( 'detailed design', #182, 'design' ) ;
#65 = FACE_OUTER_BOUND ( 'NONE', #41, .T. ) ;
#66 = ADVANCED_FACE ( 'NONE', ( #21 ), #124, .F. ) ;
#67 = CYLINDRICAL_SURFACE ( 'NONE', #192, 19.25000000000000000 ) ;
#68 = DIRECTION ( 'NONE',  ( 0.000000000000000000, 0.000000000000000000, 1.000000000000000000 ) ) ;
#69 =( LENGTH_UNIT ( ) NAMED_UNIT ( * ) SI_UNIT ( .MILLI., .METRE. ) );
#70 = VERTEX_POINT ( 'NONE', #32 ) ;
#71 = VERTEX_POINT ( 'NONE', #37 ) ;
#72 = AXIS2_PLACEMENT_3D ( 'NONE', #146, #19, #92 ) ;
#73 = EDGE_LOOP ( 'NONE', ( #15, #27 ) ) ;
#74 = PLANE ( 'NONE',  #143 ) ;
#75 = CIRCLE ( 'NONE', #128, 21.64999999999999503 ) ;
#76 = CARTESIAN_POINT ( 'NONE',  ( -22.50000000000000000, 0.000000000000000000, 0.000000000000000000 ) ) ;
#77 = UNCERTAINTY_MEASURE_WITH_UNIT (LENGTH_MEASURE( 1.000000000000000082E-05 ), #133, 'distance_accuracy_value', 'NONE');
#78 = CARTESIAN_POINT ( 'NONE',  ( 22.50000000000000000, 21.64999999999999503, 0.000000000000000000 ) ) ;
#79 = CARTESIAN_POINT ( 'NONE',  ( 22.50000000000000000, 2.651360320154018876E-15, -21.64999999999999503 ) ) ;
#80 = AXIS2_PLACEMENT_3D ( 'NONE', #155, #35, #20 ) ;
#81 = CYLINDRICAL_SURFACE ( 'NONE', #50, 21.64999999999999503 ) ;
#82 = CIRCLE ( 'NONE', #80, 19.25000000000000000 ) ;
#83 = CARTESIAN_POINT ( 'NONE',  ( 0.000000000000000000, 0.000000000000000000, 0.000000000000000000 ) ) ;
#84 = ORIENTED_EDGE ( 'NONE', *, *, #63, .T. ) ;
#85 = DIRECTION ( 'NONE',  ( 0.000000000000000000, 0.000000000000000000, 1.000000000000000000 ) ) ;
#86 = ORIENTED_EDGE ( 'NONE', *, *, #103, .F. ) ;
#87 = ORIENTED_EDGE ( 'NONE', *, *, #103, .T. ) ;
#88 = ORIENTED_EDGE ( 'NONE', *, *, #171, .F. ) ;
#89 = CARTESIAN_POINT ( 'NONE',  ( -22.50000000000000000, 2.651360320154018876E-15, -21.64999999999999503 ) ) ;
#90 = APPLICATION_CONTEXT ( 'automotive_design' ) ;
#91 = DIRECTION ( 'NONE',  ( 0.000000000000000000, 0.000000000000000000, 1.000000000000000000 ) ) ;
#92 = DIRECTION ( 'NONE',  ( 0.000000000000000000, 0.000000000000000000, 1.000000000000000000 ) ) ;
#93 = DIRECTION ( 'NONE',  ( 0.000000000000000000, 0.000000000000000000, 1.000000000000000000 ) ) ;
#94 = DIRECTION ( 'NONE',  ( -1.000000000000000000, -0.000000000000000000, -0.000000000000000000 ) ) ;
#95 = CIRCLE ( 'NONE', #176, 21.64999999999999503 ) ;
#96 = CARTESIAN_POINT ( 'NONE',  ( 22.50000000000000000, 0.000000000000000000, 0.000000000000000000 ) ) ;
#97 = FILL_AREA_STYLE ('',( #183 ) ) ;
#98 = AXIS2_PLACEMENT_3D ( 'NONE', #36, #186, #93 ) ;
#99 = ORIENTED_EDGE ( 'NONE', *, *, #13, .F. ) ;
#100 = EDGE_LOOP ( 'NONE', ( #166, #169 ) ) ;
#101 = DIRECTION ( 'NONE',  ( -1.000000000000000000, -0.000000000000000000, -0.000000000000000000 ) ) ;
#102 = LINE ( 'NONE', #121, #24 ) ;
#103 = EDGE_CURVE ( 'NONE', #51, #71, #161, .T. ) ;
#104 = DIRECTION ( 'NONE',  ( 0.000000000000000000, 0.000000000000000000, 1.000000000000000000 ) ) ;
#105 =( GEOMETRIC_REPRESENTATION_CONTEXT ( 3 ) GLOBAL_UNCERTAINTY_ASSIGNED_CONTEXT ( ( #165 ) ) GLOBAL_UNIT_ASSIGNED_CONTEXT ( ( #69, #116, #60 ) ) REPRESENTATION_CONTEXT ( 'NONE', 'WORKASPACE' ) );
#106 = DIRECTION ( 'NONE',  ( -1.000000000000000000, 0.000000000000000000, -0.000000000000000000 ) ) ;
#107 = ADVANCED_FACE ( 'NONE', ( #7, #22 ), #177, .F. ) ;
#108 = AXIS2_PLACEMENT_3D ( 'NONE', #57, #109, #49 ) ;
#109 = DIRECTION ( 'NONE',  ( -1.000000000000000000, -0.000000000000000000, -0.000000000000000000 ) ) ;
#110 = DIRECTION ( 'NONE',  ( -1.000000000000000000, -0.000000000000000000, -0.000000000000000000 ) ) ;
#111 = STYLED_ITEM ( 'NONE', ( #149 ), #5 ) ;
#112 = DIRECTION ( 'NONE',  ( -1.000000000000000000, -0.000000000000000000, -0.000000000000000000 ) ) ;
#113 = AXIS2_PLACEMENT_3D ( 'NONE', #83, #85, #42 ) ;
#114 = ORIENTED_EDGE ( 'NONE', *, *, #47, .T. ) ;
#115 = SHAPE_DEFINITION_REPRESENTATION ( #122, #139 ) ;
#116 =( NAMED_UNIT ( * ) PLANE_ANGLE_UNIT ( ) SI_UNIT ( $, .RADIAN. ) );
#117 = SURFACE_STYLE_USAGE ( .BOTH. , #120 ) ;
#118 = PRODUCT_RELATED_PRODUCT_CATEGORY ( 'part', '', ( #189 ) ) ;
#119 = ORIENTED_EDGE ( 'NONE', *, *, #158, .T. ) ;
#120 = SURFACE_SIDE_STYLE ('',( #163 ) ) ;
#121 = CARTESIAN_POINT ( 'NONE',  ( -22.50000000000000000, 0.000000000000000000, 19.25000000000000000 ) ) ;
#122 = PRODUCT_DEFINITION_SHAPE ( 'NONE', 'NONE',  #127 ) ;
#123 = CARTESIAN_POINT ( 'NONE',  ( -22.50000000000000000, 2.357445088358654757E-15, -19.25000000000000000 ) ) ;
#124 = CYLINDRICAL_SURFACE ( 'NONE', #180, 19.25000000000000000 ) ;
#125 = LINE ( 'NONE', #89, #199 ) ;
#126 = MECHANICAL_DESIGN_GEOMETRIC_PRESENTATION_REPRESENTATION (  '', ( #111 ), #105 ) ;
#127 = PRODUCT_DEFINITION ( 'UNKNOWN', '', #31, #64 ) ;
#128 = AXIS2_PLACEMENT_3D ( 'NONE', #156, #59, #160 ) ;
#129 = DIRECTION ( 'NONE',  ( 0.000000000000000000, 0.000000000000000000, 1.000000000000000000 ) ) ;
#130 = ADVANCED_FACE ( 'NONE', ( #190 ), #147, .T. ) ;
#131 = CARTESIAN_POINT ( 'NONE',  ( 22.50000000000000000, 0.000000000000000000, 21.64999999999999503 ) ) ;
#132 = VERTEX_POINT ( 'NONE', #79 ) ;
#133 =( LENGTH_UNIT ( ) NAMED_UNIT ( * ) SI_UNIT ( .MILLI., .METRE. ) );
#134 = CARTESIAN_POINT ( 'NONE',  ( -22.50000000000000000, 0.000000000000000000, 0.000000000000000000 ) ) ;
#135 = CARTESIAN_POINT ( 'NONE',  ( -22.50000000000000000, 0.000000000000000000, 0.000000000000000000 ) ) ;
#136 = EDGE_LOOP ( 'NONE', ( #198, #164 ) ) ;
#137 = EDGE_CURVE ( 'NONE', #185, #141, #172, .T. ) ;
#138 = EDGE_LOOP ( 'NONE', ( #88, #154, #119, #84 ) ) ;
#139 = ADVANCED_BREP_SHAPE_REPRESENTATION ( '2046526', ( #5, #113 ), #52 ) ;
#140 = AXIS2_PLACEMENT_3D ( 'NONE', #76, #101, #46 ) ;
#141 = VERTEX_POINT ( 'NONE', #61 ) ;
#142 = CARTESIAN_POINT ( 'NONE',  ( -22.50000000000000000, 21.64999999999999503, 0.000000000000000000 ) ) ;
#143 = AXIS2_PLACEMENT_3D ( 'NONE', #142, #3, #44 ) ;
#144 = CARTESIAN_POINT ( 'NONE',  ( 22.50000000000000000, 2.357445088358654757E-15, -19.25000000000000000 ) ) ;
#145 = EDGE_CURVE ( 'NONE', #185, #132, #2, .T. ) ;
#146 = CARTESIAN_POINT ( 'NONE',  ( -22.50000000000000000, 0.000000000000000000, 0.000000000000000000 ) ) ;
#147 = CYLINDRICAL_SURFACE ( 'NONE', #98, 21.64999999999999503 ) ;
#148 = CARTESIAN_POINT ( 'NONE',  ( -22.50000000000000000, 0.000000000000000000, 0.000000000000000000 ) ) ;
#149 = PRESENTATION_STYLE_ASSIGNMENT (( #117 ) ) ;
#150 = EDGE_LOOP ( 'NONE', ( #54, #114, #194, #184 ) ) ;
#151 = VERTEX_POINT ( 'NONE', #144 ) ;
#152 = ORIENTED_EDGE ( 'NONE', *, *, #158, .F. ) ;
#153 = CIRCLE ( 'NONE', #62, 19.25000000000000000 ) ;
#154 = ORIENTED_EDGE ( 'NONE', *, *, #38, .F. ) ;
#155 = CARTESIAN_POINT ( 'NONE',  ( 22.50000000000000000, 0.000000000000000000, 0.000000000000000000 ) ) ;
#156 = CARTESIAN_POINT ( 'NONE',  ( -22.50000000000000000, 0.000000000000000000, 0.000000000000000000 ) ) ;
#157 = DIRECTION ( 'NONE',  ( -0.000000000000000000, 0.000000000000000000, 1.000000000000000000 ) ) ;
#158 = EDGE_CURVE ( 'NONE', #70, #71, #102, .T. ) ;
#159 = CARTESIAN_POINT ( 'NONE',  ( -22.50000000000000000, 2.357445088358654757E-15, -19.25000000000000000 ) ) ;
#160 = DIRECTION ( 'NONE',  ( 0.000000000000000000, 0.000000000000000000, 1.000000000000000000 ) ) ;
#161 = CIRCLE ( 'NONE', #72, 19.25000000000000000 ) ;
#162 = ADVANCED_FACE ( 'NONE', ( #17, #6 ), #74, .F. ) ;
#163 = SURFACE_STYLE_FILL_AREA ( #97 ) ;
#164 = ORIENTED_EDGE ( 'NONE', *, *, #175, .T. ) ;
#165 = UNCERTAINTY_MEASURE_WITH_UNIT (LENGTH_MEASURE( 1.000000000000000082E-05 ), #69, 'distance_accuracy_value', 'NONE');
#166 = ORIENTED_EDGE ( 'NONE', *, *, #38, .T. ) ;
#167 = AXIS2_PLACEMENT_3D ( 'NONE', #96, #25, #14 ) ;
#168 = ORIENTED_EDGE ( 'NONE', *, *, #196, .T. ) ;
#169 = ORIENTED_EDGE ( 'NONE', *, *, #13, .T. ) ;
#170 = CIRCLE ( 'NONE', #140, 19.25000000000000000 ) ;
#171 = EDGE_CURVE ( 'NONE', #151, #51, #4, .T. ) ;
#172 = LINE ( 'NONE', #8, #18 ) ;
#173 = DIRECTION ( 'NONE',  ( -1.000000000000000000, -0.000000000000000000, -0.000000000000000000 ) ) ;
#174 = CARTESIAN_POINT ( 'NONE',  ( -22.50000000000000000, 2.651360320154018876E-15, -21.64999999999999503 ) ) ;
#175 = EDGE_CURVE ( 'NONE', #43, #141, #75, .T. ) ;
#176 = AXIS2_PLACEMENT_3D ( 'NONE', #134, #188, #104 ) ;
#177 = PLANE ( 'NONE',  #33 ) ;
#178 = ADVANCED_FACE ( 'NONE', ( #65 ), #81, .T. ) ;
#179 = CARTESIAN_POINT ( 'NONE',  ( -22.50000000000000000, 0.000000000000000000, 0.000000000000000000 ) ) ;
#180 = AXIS2_PLACEMENT_3D ( 'NONE', #179, #191, #91 ) ;
#181 = FACE_OUTER_BOUND ( 'NONE', #138, .T. ) ;
#182 = APPLICATION_CONTEXT ( 'automotive_design' ) ;
#183 = FILL_AREA_STYLE_COLOUR ( '', #30 ) ;
#184 = ORIENTED_EDGE ( 'NONE', *, *, #137, .F. ) ;
#185 = VERTEX_POINT ( 'NONE', #131 ) ;
#186 = DIRECTION ( 'NONE',  ( -1.000000000000000000, -0.000000000000000000, -0.000000000000000000 ) ) ;
#187 = DIRECTION ( 'NONE',  ( -1.000000000000000000, -0.000000000000000000, -0.000000000000000000 ) ) ;
#188 = DIRECTION ( 'NONE',  ( -1.000000000000000000, -0.000000000000000000, -0.000000000000000000 ) ) ;
#189 = PRODUCT ( '2046526', '2046526', '', ( #12 ) ) ;
#190 = FACE_OUTER_BOUND ( 'NONE', #150, .T. ) ;
#191 = DIRECTION ( 'NONE',  ( -1.000000000000000000, -0.000000000000000000, -0.000000000000000000 ) ) ;
#192 = AXIS2_PLACEMENT_3D ( 'NONE', #148, #110, #39 ) ;
#193 = ADVANCED_FACE ( 'NONE', ( #181 ), #67, .F. ) ;
#194 = ORIENTED_EDGE ( 'NONE', *, *, #10, .F. ) ;
#195 = APPLICATION_PROTOCOL_DEFINITION ( 'draft international standard', 'automotive_design', 1998, #182 ) ;
#196 = EDGE_CURVE ( 'NONE', #132, #185, #11, .T. ) ;
#197 = ORIENTED_EDGE ( 'NONE', *, *, #171, .T. ) ;
#198 = ORIENTED_EDGE ( 'NONE', *, *, #10, .T. ) ;
#199 = VECTOR ( 'NONE', #173, 1000.000000000000000 ) ;
ENDSEC;
END-ISO-10303-21;
